Chord Kunci Gitar LONGING - Helloween


Longing Chords

HELLOWEEN
LONGING
from the Chameleon record of 1993

Note: Great song by Michael Kiske, expresses much of his religious notions
and is a moving farewell from the band and from the fans...


Intro:
C#m


Verse 1:
C#m
Feelings come and go
C#m 
I'll never know
C#m
Something longs to roll
C#m
Won't let go

The spirits around my head
Are whispering
I turn inside instead
Of wondering

C#m  Bm 
(4x)


Chorus:
C#m
Deep inside of me I know there's got to be
  A
A different kind of truth that sets my spirit free
   D 
If I don't wanna know what's written inside me
            C#m B 
How could I see anything?
            B  C#m
How could I be anything?


Verse2:
C#m                              B
Restless minds have searched
C#m           B
Long before
    C#m                       B 
The truth will be the same
   C#m       B 
Forevermore

The mightiness of trees 
That you can't see
Can give you all you need
Just listen still


Bridge1:
C#m
Here is love and there is pain
     B
It's all around, it's all the same
        F#m                              C#m
There's nothing new that I could tell to you
    C#m    
But still there is the universe
  B 
Inside of us that never burns
   F#
We might not know the meaning yet
    F#                            B     B    B7  B7 
But I am sure we can't reject the truth that is in
C#m             A                        C#m 
Everything that is and has been and will be


Interlude:
e-------|-----0-----0-----|---------4-------|
B-------|---0-----0-------|-----------------|
G-------|-----------------|-------4---------|
D-------|-----------------|-----6-----------|
A---4-6-|-7-----6---------|---6---------4-6-|
E-4-----|-------------7-6-|-4---------4-----| 

e-----0-----0-----|---------4-------||
B---0-----0-------|-----------------||
G-----------------|-------4---------||
D-----------------|-----6-----------||
A-7-----6---------|---6-------------||
E-------------7-6-|-4---------------||


Bridge2:
           G#m
There is a long way to go
                         E
There is a high place to know
                       A
There is a world to go through
                            B              C#m
But there's so much more to do until we're HOME.........


Before second chorus:
A  C#m
A  C#m
A  D

then play the chorus


Outro:
C#m
Feelings come and go
     C#m
I'll never know..............