Chord Gitar JUST AROUND THE CORNER - Simple Plan


Intro:
C7  F  Am  G7

e|---3---3---3---1---1---1---0---0---0--------------|
B|-1---1---1---1---1---1---1---1---1-----3---3---3--|
G|-------------------------------------4---4---4----|
D|--------------------------------------------------|
A|--------------------------------------------------|
E|--------------------------------------------------|

C
Thought I saw you in my head
Am
How'd you slip away again?
F
Where did you go?
G7
Where did you go?

C
Get so close so many times
Am
Even almost lost my mind
F
Tryin' to find you
G7
Tryin' to find you

C                            F
How could this city feel so lonely?
Am                                G7
It's hard to believe when people tell me

Chorus:
C
Don't give up when it all comes down
Am
Only things that get lost are found
F
Just around the corner
G7
Just around the corner
C
When you don't think can take no more
Am
You might find what you're searching for
F
Just around the corner
G7
It's just around the corner, yeah

C7  F  Am                      G7
      It's just around the corner

C
If I knew where you are somehow
Am
I'd be runnin' there right now
F
No matter how far
G7
No matter how far, yeah

C                        F
This would be easier if only
Am                           G7
I could believe when people tell me

Chorus:
C
Don't give up when it all comes down
Am
Only things that get lost are found
F
Just around the corner
G7
Just around the corner
C
When you don't think can take no more
Am
You might find what you're searching for
F
Just around the corner
G7
It's just around the corner, yeah
C7    F                             Am
    It's just around the corner, yeah
G7
Just around the corner

e|------------|
B|--1--1/10---|
G|------------|
D|------------|
A|------------|
E|------------|

C                                    F
I swear the stars look like they're crying
Am                              G7
Waiting for love can feel like dying, whoa

C
Don't give up when it all comes down
Am
Only things that get lost are found
F
Just around the corner
G7
Just around the corner
C
When you don't think can take no more
Am
You might find what you're searching for
F
Just around the corner
G7
It's just around the corner, yeah
C7  F  Am
     Just around the corner
G7
It's just around the corner, yeah

Just around the corner

e|------------------|
B|---1-1-----1-1----|
G|-4-----4-4--------|   (x4)
D|------------------|
A|------------------|
E|------------------|

It's just around the corner

e|-0h1p0----|
B|----------|
G|----------|
D|----------|
A|----------|
E|----------|

C